Jump to content
Sign in to follow this  
PlasticBag

Tabs

Recommended Posts

Any good sites out there for MG(b) guitar tabs? Mgtabarcihive has not been updated since WLRRR. anyone know where HM and Van tabs are?

Share this post


Link to post
Share on other sites

If you go to the Wiki at MGtabarchive, it has tabs for Hospital Music. I've started a page for Vancouver, but as the front page of the wiki is protected, you have to search for it. I don't think there are any Vancouver tabs anywhere yet.

 

Except for a few in my head. Which I could type up one day I guess.

Share this post


Link to post
Share on other sites

I did the tab for On Nights Like Tonight on MGTabArchive.. I think thats the only one done for Vancouver so far

 

I just haven't had the time to write the others down

Share this post


Link to post
Share on other sites

Would be pretty sweet to have some more Vancouver tabs... If you have any, by all means please add them to the wiki!

Share this post


Link to post
Share on other sites

Well I started working on a tab for Last Parade based off live performances but I pretty much gave up because I have no time for it. I'll post it and if someone wants to change it or try to finish it or something, go ahead.

 

>INTRO

Guitar 1

e|------------------------------------------------------------------|
B|--6-7-6-7-6-7---6-7-6-7-6-7-9-7----6-7-6-7-6-7---6-7-6-7-6-7-9-7--|
G|-------------6----------------------------------------------------| x6
D|----------------------------------------------8-------------------| 
A|------------------------------------------------------------------| 
E|------------------------------------------------------------------|

Guitar 2 (starts up after guitar 1 goes through 4 times)


  x8  x4  x4   x8   x8
e|--2-----------10---10--|
B|--3---8-------10---10--|
G|--2---9---8---11---11--| x2
D|--0---9---9---12----0--|
A|------7---9---12---12--|
E|----------7---10---10--|




VERSE

starting from when the vocals begin


Guitar 1

e|------------------------------------------------------------------|
B|--6-7-6-7-6-7---6-7-6-7-6-7-9-7----6-7-6-7-6-7---6-7-6-7-6-7-9-7--|
G|-------------6----------------------------------------------------| x10
D|----------------------------------------------8-------------------| 
A|------------------------------------------------------------------| 
E|------------------------------------------------------------------|


e|------------------------------------------------------------|
B|--6-7-6-7-6-7---6-7-6-7-6-7-9-7----6-7-6-7-6-7---6-7-6-7-6--|
G|-------------6----------------------------------------------| x1
D|----------------------------------------------8-------------| 
A|------------------------------------------------------------| 
E|------------------------------------------------------------|

"I'll wander hooome"


Guitar 2

  x8  x4  x4   x8   x8
e|--2-----------10---10--|
B|--3---8-------10---10--|
G|--2---9---8---11---11--| x9
D|--0---9---9---12----0--|
A|------7---9---12---12--|
E|----------7---10---10--|



  x8  x4  x4  x8  x8 x16  x8  x8
e|--2-----------3---0---0---3---0--|
B|--3---8-------3---3---0---3---3--|
G|--2---9---8---0---2---0---0---2--| x1
D|--0---9---9---0---2---2---0---2--|
A|------7---9---2---0---2---2---0--|
E|----------7---3-------0---3------|

"Just black out, wake up foreign, wander home. I'll wander hooome"



CHORUS

Guitar 1

e|--|
B|--|
G|--|
D|--|
A|--|
E|--|


Guitar 2

  x8  x8  x8  x8
e|--0---3---0---0--|
B|--0---3---3---2--|
G|--0---0---2---2--| x4
D|--2---0---2---2--|
A|--2---3---0---0--|
E|--0---2----------|

 x16
e|--0--|
B|--2--|
G|--2--| x1
D|--2--|
A|--0--|
E|-----|

Edited by IamNick

Share this post


Link to post
Share on other sites
A Pony Boy tab would be fucking badarse

 

If you can find the Going Coastal video where they filmed the recording of AoB, there's a scene where Matt's playing it in the studio. You can easily make out how he's playing it.

Share this post


Link to post
Share on other sites
INTRO

 

Guitar 1

 

e|------------------------------------------------------------------|

B|--6-7-6-7-6-7---6-7-6-7-6-7-9-7----6-7-6-7-6-7---6-7-6-7-6-7-9-7--|

G|-------------6----------------------------------------------------| x6

D|----------------------------------------------8-------------------|

A|------------------------------------------------------------------|

E|------------------------------------------------------------------|

 

I play it this way .....

 

e------------------------------------------------

b------8----8----8----------8-----8----8-10-8

g--11---11---11--------11---11---11--------

d--------------------12-------------------------

a------------------------------------------------

e------------------------------------------------

 

and the chorus piano I go

e---------------------------------------------------------------------------

b---------------------------------------------------------------------------

g---------------------------------------------------------------------------

d---------------------------------------------------------------------------

a--9--9--9--------9--9--9---------9--9--9--------9--9--9--7--5--7---

e------------7--5------------7--5------------7--5----------------------7

 

e----------------------------------------------------

b----------------------------------------------------

g----------------------------------------------------

d----------------------------------------------------

a--9--9--9--7--5--7--5--7--9--9--9--7--5--7---

e---------------------------------------------------7

Share this post


Link to post
Share on other sites

Join the conversation

You can post now and register later. If you have an account, sign in now to post with your account.
Note: Your post will require moderator approval before it will be visible.

Guest
Reply to this topic...

×   Pasted as rich text.   Paste as plain text instead

  Only 75 emoji are allowed.

×   Your link has been automatically embedded.   Display as a link instead

×   Your previous content has been restored.   Clear editor

×   You cannot paste images directly. Upload or insert images from URL.

Sign in to follow this  

×
×
  • Create New...

Important Information

We have placed cookies on your device to help make this website better. You can adjust your cookie settings, otherwise we'll assume you're okay to continue.