Jump to content
Sign in to follow this  
i_the_throwaway

Vancouver Tabs/chords

Recommended Posts

Hey guys, I'm looking for some tabs and/or chords for Vancouver but the MGTab site hasn't been updated for some time, and I haven't been able to find them elsewhere. Has anyone else come across them? I'm particularly looking for Volcanoes and On Nights Like Tonight.

Share this post


Link to post
Share on other sites

I had just been looking for Volcanoes chords the other day but couldn't find any.

Share this post


Link to post
Share on other sites

Last Parade bass tab

 

>Artist: Matthew Good
Song: Last Parade
Album: Vancouver
Tuning: minus a half step (Eb, Ab, Db, Gb)

Verse 1A 
|------------------|------------------|--------------------------|----------------------|
|------------------|------------------|--------------------------|----------------------|
|-5-5-5-5--5-5-5-5-|-7-7-7-7--2-2-2-2-|-10-10-10-10--10-10-10-10-|-10-10-10-10--7-7-7-7-|
|------------------|------------------|--------------------------|----------------------|

|------------------|------------------|--------------------------|--------------------------|
|------------------|------------------|--------------------------|--------------------------|
|-5-5-5-5--5-5-5-5-|-7-7-7-7--2-2-2-2-|-10-10-10-10--10-10-10-10-|-10-10-10-10--14-14-14-14-|
|------------------|------------------|--------------------------|--------------------------|

Verse 1B 

|------------------|------------------|--------------------------|----------------------|
|------------------|------------------|--------------------------|----------------------|
|-5-5-5-5--5-5-5-5-|-7-7-7-7--2-2-2-2-|-10-10-10-10--10-10-10-10-|-10-10-10-10--7-7-7-7-|
|------------------|------------------|--------------------------|----------------------|

|------------------|------------------|--------------------------|------------------|
|------------------|------------------|--------------------------|------------------|
|-5-5-5-5--5-5-5-5-|-7-7-7-7--2-2-2-2-|-10-10-10-10--10-10-10-10-|-9-9-9-9--9-9-9-9-|
|------------------|------------------|--------------------------|------------------|

|------------------|------------------|--------------------------|--------------------------------------|
|------------------|------------------|--------------------------|--------------------------------------|
|-7-7-7-7--7-7-7-7-|-7-7-7-7--7-7-7-7-|-10-10-10-10--10-10-10-10-|-12-12--12-12--12-12--12-12--12-12-12-|
|------------------|------------------|--------------------------|--------------------------------------|

Chorus 1
|------------------|-----------------------------|------------------|--------------------------|
|------------------|-----------------------------|------------------|--------------------------|
|-7-7-7-7--7-7-7-7-|-10-10-10-10-10--10-10-10-10-|-5-5-5-5--5-5-5-5-|-12-12-12-12--12-12-12-12-|
|------------------|-----------------------------|------------------|--------------------------|

Chorus 1 END
|------------------|------------------|
|------------------|------------------|
|-7-7-7-7--7-7-7-7-|-7-7-7-7--7-7-7-7-|
|------------------|------------------|

Post Chorus
|-----|--------|------|-----------|-----|--------|------|------------------------|
|-----|--------|------|-----------|-----|--------|------|------------------------|
|--5--|--7--2--|--10--|--(10)--7--|--5--|--7--2--|--10--|--(10)--14-14--14-14-14-|
|-----|--------|------|-----------|-----|--------|------|------------------------|

Verse 2A
|------------------|------------------|--------------------------|----------------------|
|------------------|------------------|--------------------------|----------------------|
|-5-5-5-5--5-5-5-5-|-7-7-7-7--2-2-2-2-|-10-10-10-10--10-10-10-10-|-10-10-10-10--7-7-7-7-|
|------------------|------------------|--------------------------|----------------------|

Verse 2B 
|--------------------------|--------------------------|--------------------------|------------------|
|--------------------------|--------------------------|--------------------------|------------------|
|-14-14-14-14--14-14-14-14-|-12-12-12-12--12-12-12-12-|-10-10-10-10--10-10-10-10-|-7-7-7-7--7-7-7-7-|
|--------------------------|--------------------------|--------------------------|------------------|

Verse 2C
|--------------------------|--------------------------|--------------------------|------------------|
|--------------------------|--------------------------|--------------------------|------------------|
|-14-14-14-14--14-14-14-14-|-12-12-12-12--12-12-12-12-|-10-10-10-10--10-10-10-10-|-9-9-9-9--9-9-9-9-|
|--------------------------|--------------------------|--------------------------|------------------|

|------------------|------------------|--------------------------|--------------------------------------|
|------------------|------------------|--------------------------|--------------------------------------|
|-7-7-7-7--7-7-7-7-|-7-7-7-7--7-7-7-7-|-10-10-10-10--10-10-10-10-|-12-12--12-12--12-12--12-12--12-12-12-|
|------------------|------------------|--------------------------|--------------------------------------|

Chorus A
|------------------|-----------------------------|------------------|--------------------------|
|------------------|-----------------------------|------------------|--------------------------|
|-7-7-7-7--7-7-7-7-|-10-10-10-10-10--10-10-10-10-|-5-5-5-5--5-5-5-5-|-12-12-12-12--12-12-12-12-|
|------------------|-----------------------------|------------------|--------------------------|

Chorus B
|------------------|-----------------------------|------------------|--------------------------------------|
|------------------|-----------------------------|------------------|--------------------------------------|
|-7-7-7-7--7-7-7-7-|-10-10-10-10-10--10-10-10-10-|-5-5-5-5--5-5-5-5-|-12-12--12-12--12-12--12-12--12-12-12-|
|------------------|-----------------------------|------------------|--------------------------------------|

Ending

|------------------|------------------|-----|
|------------------|------------------|-----|
|-7-7-7-7--7-7-7-7-|-7-7-7-7--7-7-7-7-|--5--|
|------------------|------------------|-----|

Verse 1A x6
Verse 1B x1
Chorus A x4
Chorus 1 END x1
Post Chorus x1
Verse 2A x2
Verse 2B x3
Verse 2C x1
Chorus A x3
Chorus B x1
Chorus A x2
Ending x1

Share this post


Link to post
Share on other sites

Join the conversation

You can post now and register later. If you have an account, sign in now to post with your account.
Note: Your post will require moderator approval before it will be visible.

Guest
Reply to this topic...

×   Pasted as rich text.   Paste as plain text instead

  Only 75 emoji are allowed.

×   Your link has been automatically embedded.   Display as a link instead

×   Your previous content has been restored.   Clear editor

×   You cannot paste images directly. Upload or insert images from URL.

Sign in to follow this  

×
×
  • Create New...

Important Information

We have placed cookies on your device to help make this website better. You can adjust your cookie settings, otherwise we'll assume you're okay to continue.